Smells Like Teen Spirit – Nirvana (No Lead Guitar)

£1.00

Category:

Description

Backing tracks for you to practice and play along to at home…

This Download is for people who wish to practice Lead Guitar.

 

CHORDS USED:

  • INTRO/CHORUS/SOLO – F5 / Bb5 / G#5 / Db5
e|----------1------|
B|--------1--------|
G|-----------------|
D|-----------------|
A|-----------------|
E|-----------------|
  • POST-CHORUS:
e|-----------------------------------------|
B|-----------------------2-2-0-0-----------|
G|--1-1-1-2-2--2^--1-1-1-2-2-0-0-1---------|
D|--2-2-2-3-3------2-2-2-2-2-0-0-2---------| x2
A|--2-2-2-3-3------2-2-2---------2---------|
E|-----------------------------------------|
  • SOLO:
e|--------------|-----------------|-------------|-------------|
B|--------------|-----------------|-------------|-------------|
G|-----8-10-----|-8-8b10--8-6--5--|-6--5--------|-------------|
D|--10--------6-|-----------------|-------8-6---|-8-8b10-6--5-|
A|--------------|-----------------|-------------|-------------|
E|--------------|-----------------|-------------|-------------|

e|--------------|-----------------|-------------|-------------|
B|--------------|-----------------|-------------|-------------|
G|-----8-10-----|-8-8b10--8-6--5--|-6--5--------|-------------|
D|--10--------6-|-----------------|-------8-6---|-8-8b10-6--5-|
A|--------------|-----------------|-------------|-------------|
E|--------------|-----------------|-------------|-------------|

e|-------------|--------------|-------------|----------------|
B|-------------|--------------|-------------|----------------|
G|-------------|--------------|-------------|----------------|
D|-6-5---6-5---|-6-5---6-5-5--|-6-5---6-5---|-6-5---6-5-5----|
A|-------------|------------8-|-------------|-------------8~~|
E|-------------|--------------|-------------|----------------|

e|-------------|--------------|-------------|----------------|
B|-------------|--------------|-------------|----------------|
G|-------------|--------------|-------------|----------------|
D|-6-5---6-5---|-6-5---6-5-5--|-6-5---6-5---|-6-5---6-5-5----|
A|-------------|------------8-|-------------|-------------8~~|
E|-------------|--------------|-------------|----------------|

Reviews

There are no reviews yet.

Be the first to review “Smells Like Teen Spirit – Nirvana (No Lead Guitar)”

Your email address will not be published. Required fields are marked *